After the Goldrush Neil Young

Discussion started by adam hartfields 2 years ago

A Bm C D G

After the Goldrush  Neil Young

Well,DI dreamed I saw the knights inG armour comin',
SayinD somethin' about aG queen
There wereD peasants singin' andA drummers drummin',
And theG archer split theA tree
There was aBm fanfare blowin' Cto the sun,
There wasG floating on theC breeze
DLook at Mother NatureA on the run,
In theC Nineteen-SevenGties
DLook at Mother NatureA on the run,in theCNineteen-SevenGties
 
I wasD lying in a burned outG basement,with aDfull moon in myG eye
I was Dhoping for reAplacement,when theG sun burst through theA sky
There was Bm band playingC in my head,and IGfelt like getting Chigh
I was Dthinking about what aA friend had said I wasC hoping it was aG lie
DThinking about whatA friend had said, I wasC hoping it was aG lie

Solo:
 
Repeat tbat last line once more
Well ID dreamed I saw the silverGspaceship lyin' in the Dyellow haze of theG sun
There wereD children crying andA colours flying all aGround the chosenA one
All in aBm dream, all Cin a dream the Gloading had beCgun
D Flying mother nature'sA silver seed to aC new home in theG sun
DFlying mother nature'sA silver seed to aC new home
 
Repeat 1st Verse fade....

Solo:

-----0-0-0-0-0-----0------0-0--------------0-2-3-2-0-------0--
-3-3-----------3-3----3-3-----3-3-3----3-3-----------3-3-3----
--------------------------------------------------------------
--------------------------------------------------------------
--------------------------------------------------------------
--------------------------------------------------------------
---0-2-----2-0----5-7-5-2--2-2--0---0---0-2-------0---
-3-----3-3------------------------3---------3-3-3-----
------------------------------------------------------
------------------------------------------------------
------------------------------------------------------
------------------------------------------------------
-----0-0-0-0--2-3-2--0-0--0-2-----------
-3-3---------------------------3-3-0-3--
----------------------------------------
----------------------------------------
----------------------------------------
----------------------------------------
You need to be a member of this group before you can participate in this discussion.